  0
SECTION
  2
HEADER
  9
$ACADVER
  1
AC1015
  9
$ACADMAINTVER
 70
    20
  9
$DWGCODEPAGE
  3
ANSI_1252
  9
$INSBASE
 10
0.0
 20
0.0
 30
0.0
  9
$EXTMIN
 10
181.4492809742797
 20
322.431556201891
 30
-0.0015258207003583
  9
$EXTMAX
 10
183.7564093942712
 20
322.8996119629072
 30
0.0000000349246037
  9
$LIMMIN
 10
0.0
 20
0.0
  9
$LIMMAX
 10
420.0
 20
297.0
  9
$ORTHOMODE
 70
     1
  9
$REGENMODE
 70
     1
  9
$FILLMODE
 70
     1
  9
$QTEXTMODE
 70
     0
  9
$MIRRTEXT
 70
     1
  9
$LTSCALE
 40
1.0
  9
$ATTMODE
 70
     1
  9
$TEXTSIZE
 40
2.5
  9
$TRACEWID
 40
1.0
  9
$TEXTSTYLE
  7
Standard
  9
$CLAYER
  8
0
  9
$CELTYPE
  6
ByLayer
  9
$CECOLOR
 62
   256
  9
$CELTSCALE
 40
1.0
  9
$DISPSILH
 70
     0
  9
$DIMSCALE
 40
1.0
  9
$DIMASZ
 40
2.5
  9
$DIMEXO
 40
0.625
  9
$DIMDLI
 40
3.75
  9
$DIMRND
 40
0.0
  9
$DIMDLE
 40
0.0
  9
$DIMEXE
 40
1.25
  9
$DIMTP
 40
0.0
  9
$DIMTM
 40
0.0
  9
$DIMTXT
 40
2.5
  9
$DIMCEN
 40
2.5
  9
$DIMTSZ
 40
0.0
  9
$DIMTOL
 70
     0
  9
$DIMLIM
 70
     0
  9
$DIMTIH
 70
     0
  9
$DIMTOH
 70
     0
  9
$DIMSE1
 70
     0
  9
$DIMSE2
 70
     0
  9
$DIMTAD
 70
     1
  9
$DIMZIN
 70
     8
  9
$DIMBLK
  1

  9
$DIMASO
 70
     1
  9
$DIMSHO
 70
     1
  9
$DIMPOST
  1

  9
$DIMAPOST
  1

  9
$DIMALT
 70
     0
  9
$DIMALTD
 70
     3
  9
$DIMALTF
 40
0.03937007874016
  9
$DIMLFAC
 40
1.0
  9
$DIMTOFL
 70
     1
  9
$DIMTVP
 40
0.0
  9
$DIMTIX
 70
     0
  9
$DIMSOXD
 70
     0
  9
$DIMSAH
 70
     0
  9
$DIMBLK1
  1

  9
$DIMBLK2
  1

  9
$DIMSTYLE
  2
ISO-25
  9
$DIMCLRD
 70
     0
  9
$DIMCLRE
 70
     0
  9
$DIMCLRT
 70
     0
  9
$DIMTFAC
 40
1.0
  9
$DIMGAP
 40
0.625
  9
$DIMJUST
 70
     0
  9
$DIMSD1
 70
     0
  9
$DIMSD2
 70
     0
  9
$DIMTOLJ
 70
     0
  9
$DIMTZIN
 70
     8
  9
$DIMALTZ
 70
     0
  9
$DIMALTTZ
 70
     0
  9
$DIMUPT
 70
     0
  9
$DIMDEC
 70
     2
  9
$DIMTDEC
 70
     2
  9
$DIMALTU
 70
     2
  9
$DIMALTTD
 70
     3
  9
$DIMTXSTY
  7
Standard
  9
$DIMAUNIT
 70
     0
  9
$DIMADEC
 70
     0
  9
$DIMALTRND
 40
0.0
  9
$DIMAZIN
 70
     0
  9
$DIMDSEP
 70
    44
  9
$DIMATFIT
 70
     3
  9
$DIMFRAC
 70
     0
  9
$DIMLDRBLK
  1

  9
$DIMLUNIT
 70
     2
  9
$DIMLWD
 70
    -2
  9
$DIMLWE
 70
    -2
  9
$DIMTMOVE
 70
     0
  9
$LUNITS
 70
     2
  9
$LUPREC
 70
     4
  9
$SKETCHINC
 40
1.0
  9
$FILLETRAD
 40
10.0
  9
$AUNITS
 70
     0
  9
$AUPREC
 70
     0
  9
$MENU
  1
.
  9
$ELEVATION
 40
0.0
  9
$PELEVATION
 40
0.0
  9
$THICKNESS
 40
0.0
  9
$LIMCHECK
 70
     0
  9
$CHAMFERA
 40
10.0
  9
$CHAMFERB
 40
10.0
  9
$CHAMFERC
 40
20.0
  9
$CHAMFERD
 40
0.0
  9
$SKPOLY
 70
     0
  9
$TDCREATE
 40
2452831.478472396
  9
$TDUCREATE
 40
2452831.436805730
  9
$TDUPDATE
 40
2453977.643516342
  9
$TDUUPDATE
 40
2453977.601849676
  9
$TDINDWG
 40
0.0162653588
  9
$TDUSRTIMER
 40
0.0162653588
  9
$USRTIMER
 70
     1
  9
$ANGBASE
 50
0.0
  9
$ANGDIR
 70
     0
  9
$PDMODE
 70
     0
  9
$PDSIZE
 40
0.0
  9
$PLINEWID
 40
0.0
  9
$SPLFRAME
 70
     0
  9
$SPLINETYPE
 70
     6
  9
$SPLINESEGS
 70
     8
  9
$HANDSEED
  5
3F4
  9
$SURFTAB1
 70
     6
  9
$SURFTAB2
 70
     6
  9
$SURFTYPE
 70
     6
  9
$SURFU
 70
     6
  9
$SURFV
 70
     6
  9
$UCSBASE
  2

  9
$UCSNAME
  2

  9
$UCSORG
 10
-1050.731164148159
 20
-581.940076297796
 30
0.0
  9
$UCSXDIR
 10
1.0
 20
0.0
 30
0.0
  9
$UCSYDIR
 10
0.0
 20
1.0
 30
0.0
  9
$UCSORTHOREF
  2

  9
$UCSORTHOVIEW
 70
     0
  9
$UCSORGTOP
 10
0.0
 20
0.0
 30
0.0
  9
$UCSORGBOTTOM
 10
0.0
 20
0.0
 30
0.0
  9
$UCSORGLEFT
 10
0.0
 20
0.0
 30
0.0
  9
$UCSORGRIGHT
 10
0.0
 20
0.0
 30
0.0
  9
$UCSORGFRONT
 10
0.0
 20
0.0
 30
0.0
  9
$UCSORGBACK
 10
0.0
 20
0.0
 30
0.0
  9
$PUCSBASE
  2

  9
$PUCSNAME
  2

  9
$PUCSORG
 10
0.0
 20
0.0
 30
0.0
  9
$PUCSXDIR
 10
1.0
 20
0.0
 30
0.0
  9
$PUCSYDIR
 10
0.0
 20
1.0
 30
0.0
  9
$PUCSORTHOREF
  2

  9
$PUCSORTHOVIEW
 70
     0
  9
$PUCSORGTOP
 10
0.0
 20
0.0
 30
0.0
  9
$PUCSORGBOTTOM
 10
0.0
 20
0.0
 30
0.0
  9
$PUCSORGLEFT
 10
0.0
 20
0.0
 30
0.0
  9
$PUCSORGRIGHT
 10
0.0
 20
0.0
 30
0.0
  9
$PUCSORGFRONT
 10
0.0
 20
0.0
 30
0.0
  9
$PUCSORGBACK
 10
0.0
 20
0.0
 30
0.0
  9
$USERI1
 70
     0
  9
$USERI2
 70
     0
  9
$USERI3
 70
     0
  9
$USERI4
 70
     0
  9
$USERI5
 70
     0
  9
$USERR1
 40
0.0
  9
$USERR2
 40
0.0
  9
$USERR3
 40
0.0
  9
$USERR4
 40
0.0
  9
$USERR5
 40
0.0
  9
$WORLDVIEW
 70
     1
  9
$SHADEDGE
 70
     3
  9
$SHADEDIF
 70
    70
  9
$TILEMODE
 70
     1
  9
$MAXACTVP
 70
    64
  9
$PINSBASE
 10
0.0
 20
0.0
 30
0.0
  9
$PLIMCHECK
 70
     0
  9
$PEXTMIN
 10
1.000000000000000E+20
 20
1.000000000000000E+20
 30
1.000000000000000E+20
  9
$PEXTMAX
 10
-1.000000000000000E+20
 20
-1.000000000000000E+20
 30
-1.000000000000000E+20
  9
$PLIMMIN
 10
0.0
 20
0.0
  9
$PLIMMAX
 10
420.0
 20
297.0
  9
$UNITMODE
 70
     0
  9
$VISRETAIN
 70
     1
  9
$PLINEGEN
 70
     0
  9
$PSLTSCALE
 70
     1
  9
$TREEDEPTH
 70
  3020
  9
$CMLSTYLE
  2
Standard
  9
$CMLJUST
 70
     0
  9
$CMLSCALE
 40
20.0
  9
$PROXYGRAPHICS
 70
     1
  9
$MEASUREMENT
 70
     1
  9
$CELWEIGHT
370
    -1
  9
$ENDCAPS
280
     0
  9
$JOINSTYLE
280
     0
  9
$LWDISPLAY
290
     0
  9
$INSUNITS
 70
     6
  9
$HYPERLINKBASE
  1

  9
$STYLESHEET
  1

  9
$XEDIT
290
     1
  9
$CEPSNTYPE
380
     0
  9
$PSTYLEMODE
290
     1
  9
$FINGERPRINTGUID
  2
{6CD8B930-3120-4DF4-A365-4105C7565524}
  9
$VERSIONGUID
  2
{17D581A7-960C-42C6-9383-F239EE4A83BA}
  9
$EXTNAMES
290
     1
  9
$PSVPSCALE
 40
0.0
  9
$OLESTARTUP
290
     0
  0
ENDSEC
  0
SECTION
  2
CLASSES
  0
CLASS
  1
ACDBDICTIONARYWDFLT
  2
AcDbDictionaryWithDefault
  3
ObjectDBX Classes
 90
        0
280
     0
281
     0
  0
CLASS
  1
ACDBPLACEHOLDER
  2
AcDbPlaceHolder
  3
ObjectDBX Classes
 90
        0
280
     0
281
     0
  0
CLASS
  1
LAYOUT
  2
AcDbLayout
  3
ObjectDBX Classes
 90
        0
280
     0
281
     0
  0
CLASS
  1
DIMASSOC
  2
AcDbDimAssoc
  3
"AcDbDimAssoc|Product Desc:     AcDim ARX App For Dimension|Company:          Autodesk, Inc.|WEB Address:      www.autodesk.com"
 90
    32768
280
     0
281
     0
  0
CLASS
  1
DICTIONARYVAR
  2
AcDbDictionaryVar
  3
ObjectDBX Classes
 90
        0
280
     0
281
     0
  0
CLASS
  1
TABLESTYLE
  2
AcDbTableStyle
  3
ObjectDBX Classes
 90
     2047
280
     0
281
     0
  0
CLASS
  1
SORTENTSTABLE
  2
AcDbSortentsTable
  3
ObjectDBX Classes
 90
        0
280
     0
281
     0
  0
ENDSEC
  0
SECTION
  2
TABLES
  0
TABLE
  2
VPORT
  5
8
330
0
100
AcDbSymbolTable
 70
     3
  0
VPORT
  5
3EB
330
8
100
AcDbSymbolTableRecord
100
AcDbViewportTableRecord
  2
*Active
 70
     0
 10
0.0
 20
0.0
 11
1.0
 21
1.0
 12
182.6028451842755
 22
322.6655840823991
 13
0.0
 23
0.0
 14
10.0
 24
10.0
 15
10.0
 25
10.0
 16
0.0
 26
0.0
 36
1.0
 17
0.0
 27
0.0
 37
0.0
 40
1.452935995047482
 41
1.593939393939393
 42
50.0
 43
0.0
 44
0.0
 50
0.0
 51
0.0
 71
     0
 72
   100
 73
     1
 74
     3
 75
     0
 76
     0
 77
     0
 78
     0
281
     0
 65
     1
110
-1050.731164148159
120
-581.940076297796
130
0.0
111
1.0
121
0.0
131
0.0
112
0.0
122
1.0
132
0.0
 79
     0
146
0.0
  0
ENDTAB
  0
TABLE
  2
LTYPE
  5
5
330
0
100
AcDbSymbolTable
 70
     2
  0
LTYPE
  5
14
330
5
100
AcDbSymbolTableRecord
100
AcDbLinetypeTableRecord
  2
ByBlock
 70
     0
  3

 72
    65
 73
     0
 40
0.0
  0
LTYPE
  5
15
330
5
100
AcDbSymbolTableRecord
100
AcDbLinetypeTableRecord
  2
ByLayer
 70
     0
  3

 72
    65
 73
     0
 40
0.0
  0
LTYPE
  5
16
330
5
100
AcDbSymbolTableRecord
100
AcDbLinetypeTableRecord
  2
Continuous
 70
     0
  3
Solid line
 72
    65
 73
     0
 40
0.0
  0
LTYPE
  5
CF
330
5
100
AcDbSymbolTableRecord
100
AcDbLinetypeTableRecord
  2
CENTER
 70
     0
  3
Center ____ _ ____ _ ____ _ ____ _ ____ _ ____
 72
    65
 73
     4
 40
10.16
 49
6.349999999999998
 74
     0
 49
-1.27
 74
     0
 49
1.27
 74
     0
 49
-1.27
 74
     0
  0
ENDTAB
  0
TABLE
  2
LAYER
  5
2
330
0
100
AcDbSymbolTable
 70
     9
  0
LAYER
  5
10
330
2
100
AcDbSymbolTableRecord
100
AcDbLayerTableRecord
  2
0
 70
     0
 62
     7
  6
Continuous
370
    -3
390
F
  0
LAYER
  5
D0
330
2
100
AcDbSymbolTableRecord
100
AcDbLayerTableRecord
  2
3
 70
     0
 62
     3
  6
Continuous
370
    -3
390
F
  0
LAYER
  5
D1
330
2
100
AcDbSymbolTableRecord
100
AcDbLayerTableRecord
  2
Defpoints
 70
     0
 62
     7
  6
Continuous
290
     0
370
    -3
390
F
  0
LAYER
  5
D2
330
2
100
AcDbSymbolTableRecord
100
AcDbLayerTableRecord
  2
9
 70
     0
 62
     9
  6
Continuous
370
    -3
390
F
  0
LAYER
  5
D3
330
2
100
AcDbSymbolTableRecord
100
AcDbLayerTableRecord
  2
hatch
 70
     0
 62
     9
  6
Continuous
370
    -3
390
F
  0
LAYER
  5
D4
330
2
100
AcDbSymbolTableRecord
100
AcDbLayerTableRecord
  2
INDUSA
 70
     0
 62
     1
  6
Continuous
370
    -3
390
F
  0
LAYER
  5
D5
330
2
100
AcDbSymbolTableRecord
100
AcDbLayerTableRecord
  2
COTAS
 70
     0
 62
     1
  6
Continuous
370
    -3
390
F
  0
LAYER
  5
D6
330
2
100
AcDbSymbolTableRecord
100
AcDbLayerTableRecord
  2
INDUSA CEN
 70
     0
 62
     9
  6
CENTER
370
    -3
390
F
  0
LAYER
  5
3E0
330
2
100
AcDbSymbolTableRecord
100
AcDbLayerTableRecord
  2
sanindusa
 70
     0
 62
     3
  6
Continuous
370
    -3
390
F
  0
ENDTAB
  0
TABLE
  2
STYLE
  5
3
330
0
100
AcDbSymbolTable
 70
     2
  0
STYLE
  5
11
330
3
100
AcDbSymbolTableRecord
100
AcDbTextStyleTableRecord
  2
Standard
 70
     0
 40
0.0
 41
1.0
 50
0.0
 71
     0
 42
2.5
  3
txt
  4

  0
STYLE
  5
D7
330
3
100
AcDbSymbolTableRecord
100
AcDbTextStyleTableRecord
  2
SANINDUSA
 70
     0
 40
0.0
 41
1.0
 50
0.0
 71
     0
 42
2.5
  3
simplex.shx
  4

  0
ENDTAB
  0
TABLE
  2
VIEW
  5
6
330
0
100
AcDbSymbolTable
 70
     0
  0
ENDTAB
  0
TABLE
  2
UCS
  5
7
330
0
100
AcDbSymbolTable
 70
     0
  0
ENDTAB
  0
TABLE
  2
APPID
  5
9
330
0
100
AcDbSymbolTable
 70
     2
  0
APPID
  5
12
330
9
100
AcDbSymbolTableRecord
100
AcDbRegAppTableRecord
  2
ACAD
 70
     0
  0
APPID
  5
3BA
330
9
100
AcDbSymbolTableRecord
100
AcDbRegAppTableRecord
  2
DCO15
 70
     0
  0
ENDTAB
  0
TABLE
  2
DIMSTYLE
  5
A
330
0
100
AcDbSymbolTable
 70
     3
100
AcDbDimStyleTable
 71
     1
340
27
  0
DIMSTYLE
105
27
330
A
100
AcDbSymbolTableRecord
100
AcDbDimStyleTableRecord
  2
ISO-25
 70
     0
 41
2.5
 42
0.625
 43
3.75
 44
1.25
 73
     0
 74
     0
 77
     1
 78
     8
140
2.5
141
2.5
143
0.03937007874016
147
0.625
171
     3
172
     1
271
     2
272
     2
274
     3
278
    44
283
     0
284
     8
340
11
  0
DIMSTYLE
105
D8
330
A
100
AcDbSymbolTableRecord
100
AcDbDimStyleTableRecord
  2
SANINDUSA
 70
     0
 41
3.0
 42
1.0
 43
1.0
 44
1.0
 73
     0
 74
     0
 77
     1
 78
     8
140
2.0
141
0.0
143
0.03937007874016
147
1.0
171
     3
172
     1
176
     1
177
     1
178
     1
179
     1
271
     1
272
     1
274
     3
278
    44
283
     0
284
     8
340
D7
371
    -1
372
    -1
  0
DIMSTYLE
105
338
330
A
100
AcDbSymbolTableRecord
100
AcDbDimStyleTableRecord
  2
STANDARD
 70
     0
289
     0
340
11
  0
ENDTAB
  0
TABLE
  2
BLOCK_RECORD
  5
1
330
0
100
AcDbSymbolTable
 70
     1
  0
BLOCK_RECORD
  5
1F
102
{ACAD_XDICTIONARY
360
3DD
102
}
330
1
100
AcDbSymbolTableRecord
100
AcDbBlockTableRecord
  2
*Model_Space
340
22
  0
BLOCK_RECORD
  5
1B
330
1
100
AcDbSymbolTableRecord
100
AcDbBlockTableRecord
  2
*Paper_Space
340
1E
  0
BLOCK_RECORD
  5
23
330
1
100
AcDbSymbolTableRecord
100
AcDbBlockTableRecord
  2
*Paper_Space0
340
26
  0
ENDTAB
  0
ENDSEC
  0
SECTION
  2
BLOCKS
  0
BLOCK
  5
20
330
1F
100
AcDbEntity
  8
0
100
AcDbBlockBegin
  2
*Model_Space
 70
     0
 10
0.0
 20
0.0
 30
0.0
  3
*Model_Space
  1

  0
ENDBLK
  5
21
330
1F
100
AcDbEntity
  8
0
100
AcDbBlockEnd
  0
BLOCK
  5
1C
330
1B
100
AcDbEntity
 67
     1
  8
0
100
AcDbBlockBegin
  2
*Paper_Space
 70
     0
 10
0.0
 20
0.0
 30
0.0
  3
*Paper_Space
  1

  0
ENDBLK
  5
1D
330
1B
100
AcDbEntity
 67
     1
  8
0
100
AcDbBlockEnd
  0
BLOCK
  5
24
330
23
100
AcDbEntity
 67
     1
  8
0
100
AcDbBlockBegin
  2
*Paper_Space0
 70
     0
 10
0.0
 20
0.0
 30
0.0
  3
*Paper_Space0
  1

  0
ENDBLK
  5
25
330
23
100
AcDbEntity
 67
     1
  8
0
100
AcDbBlockEnd
  0
ENDSEC
  0
SECTION
  2
ENTITIES
  0
CIRCLE
  5
1A4
330
1F
100
AcDbEntity
  8
3
  6
Continuous
100
AcDbCircle
 10
181.6921983980565
 20
322.6672573977122
 30
0.0
 40
0.0225000000000002
  0
CIRCLE
  5
1A9
330
1F
100
AcDbEntity
  8
3
  6
Continuous
100
AcDbCircle
 10
181.6921983980565
 20
322.6672573977122
 30
0.0
 40
0.2225000000000001
  0
CIRCLE
  5
1AA
330
1F
100
AcDbEntity
  8
3
  6
Continuous
100
AcDbCircle
 10
181.6921983980565
 20
322.6672573977122
 30
0.0
 40
0.1825000000000001
  0
LINE
  5
1BC
330
1F
100
AcDbEntity
  8
3
100
AcDbLine
 10
182.0375976875684
 20
322.76548504653
 30
0.0
 11
182.4225976875685
 21
322.76548504653
 31
0.0
  0
LINE
  5
1BD
330
1F
100
AcDbEntity
  8
3
100
AcDbLine
 10
182.0085976875685
 20
322.76548504653
 30
0.0
 11
182.0375976875684
 21
322.76548504653
 31
0.0
  0
ARC
  5
1BF
330
1F
100
AcDbEntity
  8
3
  6
Continuous
100
AcDbCircle
 10
182.0125976875685
 20
322.80048504653
 30
0.0
 40
0.005
100
AcDbArc
 50
90.0
 51
180.0
  0
ARC
  5
1C0
330
1F
100
AcDbEntity
  8
3
  6
Continuous
100
AcDbCircle
 10
182.0085976875685
 20
322.76648504653
 30
0.0
 40
0.0010000000000001
100
AcDbArc
 50
180.0
 51
270.0
  0
LINE
  5
1C1
330
1F
100
AcDbEntity
  8
3
  6
Continuous
100
AcDbLine
 10
182.0075976875685
 20
322.80048504653
 30
0.0
 11
182.0075976875685
 21
322.76648504653
 31
0.0
  0
ARC
  5
1C2
330
1F
100
AcDbEntity
  8
3
  6
Continuous
100
AcDbCircle
 10
182.1750976875685
 20
322.5480577957655
 30
0.0
 40
0.02
100
AcDbArc
 50
0.0
 51
71.83765768561819
  0
ARC
  5
1C3
330
1F
100
AcDbEntity
  8
3
  6
Continuous
100
AcDbCircle
 10
182.1960976875685
 20
322.52648504653
 30
0.0
 40
0.0010000000000001
100
AcDbArc
 50
180.0
 51
270.0
  0
LINE
  5
1C4
330
1F
100
AcDbEntity
  8
3
  6
Continuous
100
AcDbLine
 10
182.1950976875685
 20
322.5480577957655
 30
0.0
 11
182.1950976875685
 21
322.52648504653
 31
0.0
  0
ARC
  5
1C5
330
1F
100
AcDbEntity
  8
3
  6
Continuous
100
AcDbCircle
 10
182.2850976875685
 20
322.5480577957655
 30
0.0
 40
0.02
100
AcDbArc
 50
108.1623423143818
 51
180.0
  0
ARC
  5
1C6
330
1F
100
AcDbEntity
  8
3
  6
Continuous
100
AcDbCircle
 10
182.2640976875685
 20
322.52648504653
 30
0.0
 40
0.001
100
AcDbArc
 50
270.0
 51
0.0
  0
LINE
  5
1C7
330
1F
100
AcDbEntity
  8
3
  6
Continuous
100
AcDbLine
 10
182.2650976875685
 20
322.52648504653
 30
0.0
 11
182.2650976875685
 21
322.5480577957655
 31
0.0
  0
LINE
  5
1C8
330
1F
100
AcDbEntity
  8
3
  6
Continuous
100
AcDbLine
 10
182.1813318971963
 20
322.5670613383383
 30
0.0
 11
182.2788634779406
 21
322.5670613383383
 31
0.0
  0
LINE
  5
1CA
330
1F
100
AcDbEntity
  8
3
  6
Continuous
100
AcDbLine
 10
182.2640976875672
 20
322.52548504653
 30
0.0
 11
182.1960976875685
 21
322.52548504653
 31
0.0
  0
ARC
  5
1CB
330
1F
100
AcDbEntity
  8
3
  6
Continuous
100
AcDbCircle
 10
182.2464258125684
 20
322.76548504653
 30
0.0
 40
0.208828125
100
AcDbArc
 50
180.0
 51
251.8376576856182
  0
ARC
  5
1CC
330
1F
100
AcDbEntity
  8
3
  6
Continuous
100
AcDbCircle
 10
182.4475976875685
 20
322.80048504653
 30
0.0
 40
0.005
100
AcDbArc
 50
0.0
 51
90.0
  0
ARC
  5
1CD
330
1F
100
AcDbEntity
  8
3
  6
Continuous
100
AcDbCircle
 10
182.4515976875685
 20
322.76648504653
 30
0.0
 40
0.0010000000000001
100
AcDbArc
 50
270.0
 51
0.0
  0
LINE
  5
1CE
330
1F
100
AcDbEntity
  8
3
  6
Continuous
100
AcDbLine
 10
182.4525976875685
 20
322.76648504653
 30
0.0
 11
182.4525976875685
 21
322.80048504653
 31
0.0
  0
ARC
  5
1CF
330
1F
100
AcDbEntity
  8
3
  6
Continuous
100
AcDbCircle
 10
182.2137695625685
 20
322.76548504653
 30
0.0
 40
0.208828125
100
AcDbArc
 50
288.1623423143818
 51
0.0
  0
LINE
  5
1D1
330
1F
100
AcDbEntity
  8
3
  6
Continuous
100
AcDbLine
 10
182.4515976875685
 20
322.76548504653
 30
0.0
 11
182.4225976875685
 21
322.76548504653
 31
0.0
  0
LINE
  5
1D3
330
1F
100
AcDbEntity
  8
3
  6
Continuous
100
AcDbLine
 10
182.0125976875701
 20
322.80548504653
 30
0.0
 11
182.4475976875685
 21
322.80548504653
 31
0.0
  0
LWPOLYLINE
  5
1D5
330
1F
100
AcDbEntity
  8
3
  6
Continuous
100
AcDbPolyline
 90
       19
 70
   128
 43
0.0
 10
183.3048523641633
 20
322.7729304885282
 10
183.3063576268147
 20
322.7569235638274
 10
183.30883400212
 20
322.7410860538566
 10
183.3122664314729
 20
322.7254628782692
 10
183.3166438813463
 20
322.7100935370574
 10
183.3219573705093
 20
322.6950147668511
 10
183.3281979095422
 20
322.6802633153065
 10
183.3367211471888
 20
322.6633608034952
 10
183.3464614664101
 20
322.6470826082052
 10
183.3573665797625
 20
322.6315394466197
 10
183.3693749572713
 20
322.6168351716704
 10
183.3809585198294
 20
322.6044847444831
 10
183.3932878132642
 20
322.5929293805358
 10
183.4063011354589
 20
322.5822234444333
 10
183.4199542370505
 20
322.5723978011149
 10
183.4342091730864
 20
322.5634748267998
 10
183.4490278615705
 20
322.5554770822325
 10
183.4643686276888
 20
322.5484319657908
 10
183.4801860629101
 20
322.542371903203
  0
ARC
  5
1D6
330
1F
100
AcDbEntity
  8
3
  6
Continuous
100
AcDbCircle
 10
183.5015486241156
 20
322.7727630748536
 30
0.0
 40
0.208828125
100
AcDbArc
 50
288.1623423143818
 51
0.5248556854685793
  0
ARC
  5
1D7
330
1F
100
AcDbEntity
  8
3
  6
Continuous
100
AcDbCircle
 10
183.5342048741156
 20
322.7727630748536
 30
0.0
 40
0.1988281249999999
100
AcDbArc
 50
183.8737420834764
 51
251.9026814126191
  0
ARC
  5
1D8
330
1F
100
AcDbEntity
  8
3
  6
Continuous
100
AcDbCircle
 10
183.5015486241156
 20
322.7727630748536
 30
0.0
 40
0.198828125
100
AcDbArc
 50
288.0973185873809
 51
0.0
  0
ARC
  5
1D9
330
1F
100
AcDbEntity
  8
3
  6
Continuous
100
AcDbCircle
 10
183.5342048741156
 20
322.7727630748536
 30
0.0
 40
0.208828125
100
AcDbArc
 50
183.724414177445
 51
251.8376576856182
  0
LWPOLYLINE
  5
1DA
330
1F
100
AcDbEntity
  8
3
  6
Continuous
100
AcDbPolyline
 90
       20
 70
   128
 43
0.0
 10
183.3123679147039
 20
322.7939486050396
 10
183.3124693998896
 20
322.7755458037715
 10
183.313933462218
 20
322.7571754250476
 10
183.3167432452124
 20
322.7389876795371
 10
183.3204782825813
 20
322.7226430687746
 10
183.3253254769137
 20
322.7065336223508
 10
183.3312430320568
 20
322.6907648085957
 10
183.3381891518582
 20
322.6754420958391
 10
183.3461220401652
 20
322.6606709524112
 10
183.3550658275776
 20
322.6464432477401
 10
183.3649840696253
 20
322.6328059513362
 10
183.3758029724513
 20
322.6198459971625
 10
183.3874487421982
 20
322.6076503191821
 10
183.3998475850088
 20
322.5963058513585
 10
183.4130088072513
 20
322.5858271122904
 10
183.4268983614997
 20
322.5762325247635
 10
183.4414170689045
 20
322.5675810193627
 10
183.4564657506166
 20
322.5599315266728
 10
183.4719452277863
 20
322.5533429772792
 10
183.4807812996288
 20
322.5501272117365
  0
ARC
  5
1DB
330
1F
100
AcDbEntity
  8
3
  6
Continuous
100
AcDbCircle
 10
183.5268533142834
 20
322.6065106389871
 30
0.0
 40
0.0410397004855983
100
AcDbArc
 50
292.0363085661055
 51
320.8196518177004
  0
ARC
  5
1DC
330
1F
100
AcDbEntity
  8
3
  6
Continuous
100
AcDbCircle
 10
183.5089001839479
 20
322.6065106389871
 30
0.0
 40
0.0410397004855983
100
AcDbArc
 50
219.1803481822997
 51
247.9636914338945
  0
LINE
  5
1DE
330
1F
100
AcDbEntity
  8
3
  6
Continuous
100
AcDbLine
 10
183.4943767491157
 20
322.5327630748536
 30
0.0
 11
183.5413767491156
 21
322.5327630748536
 31
0.0
  0
LINE
  5
1E1
330
1F
100
AcDbEntity
  8
3
  6
Continuous
100
AcDbLine
 10
183.5528767491157
 20
322.5553358240891
 30
0.0
 11
183.5528767491157
 21
322.5337630748535
 31
0.0
  0
LINE
  5
1E2
330
1F
100
AcDbEntity
  8
3
  6
Continuous
100
AcDbLine
 10
183.5403767491157
 20
322.5337630748535
 30
0.0
 11
183.5403767491157
 21
322.5656882025067
 31
0.0
  0
LINE
  5
1E3
330
1F
100
AcDbEntity
  8
3
  6
Continuous
100
AcDbLine
 10
183.5518767491157
 20
322.5327630748536
 30
0.0
 11
183.5413767491156
 21
322.5327630748536
 31
0.0
  0
ARC
  5
1E4
330
1F
100
AcDbEntity
  8
3
  6
Continuous
100
AcDbCircle
 10
183.5518767491157
 20
322.5337630748535
 30
0.0
 40
0.0010000000000002
100
AcDbArc
 50
270.0
 51
0.0
  0
ARC
  5
1E5
330
1F
100
AcDbEntity
  8
3
  6
Continuous
100
AcDbCircle
 10
183.5413767491156
 20
322.5337630748535
 30
0.0
 40
0.0010000000000002
100
AcDbArc
 50
180.0
 51
270.0
  0
ARC
  5
1E6
330
1F
100
AcDbEntity
  8
3
  6
Continuous
100
AcDbCircle
 10
183.5728767491156
 20
322.5553358240891
 30
0.0
 40
0.0200000000000002
100
AcDbArc
 50
108.1623423143818
 51
180.0
  0
ARC
  5
1E8
330
1F
100
AcDbEntity
  8
3
  6
Continuous
100
AcDbCircle
 10
183.5433767491157
 20
322.5656882025067
 30
0.0
 40
0.0030000000000002
100
AcDbArc
 50
112.0363085661055
 51
180.0
  0
LWPOLYLINE
  5
1EE
330
1F
100
AcDbEntity
  8
3
  6
Continuous
100
AcDbPolyline
 90
        5
 70
   128
 43
0.0
 10
183.4801860629101
 20
322.542371903203
 10
183.4813633381085
 20
322.5417254500068
 10
183.4822602692607
 20
322.5407257534848
 10
183.4827757341832
 20
322.5394855218364
 10
183.4828767491156
 20
322.5385922607082
  0
LINE
  5
1EF
330
1F
100
AcDbEntity
  8
3
  6
Continuous
100
AcDbLine
 10
183.4953767491157
 20
322.5484197417833
 30
0.0
 11
183.4953767491157
 21
322.5337630748535
 31
0.0
  0
LINE
  5
1F0
330
1F
100
AcDbEntity
  8
3
  6
Continuous
100
AcDbLine
 10
183.4943767491157
 20
322.5327630748536
 30
0.0
 11
183.4838767491156
 21
322.5327630748536
 31
0.0
  0
ARC
  5
1F1
330
1F
100
AcDbEntity
  8
3
  6
Continuous
100
AcDbCircle
 10
183.4943767491157
 20
322.5337630748535
 30
0.0
 40
0.0010000000000002
100
AcDbArc
 50
270.0
 51
0.0
  0
LINE
  5
1F2
330
1F
100
AcDbEntity
  8
3
  6
Continuous
100
AcDbLine
 10
183.4828767491156
 20
322.5337630748535
 30
0.0
 11
183.4828767491156
 21
322.5385922607082
 31
0.0
  0
ARC
  5
1F3
330
1F
100
AcDbEntity
  8
3
  6
Continuous
100
AcDbCircle
 10
183.4838767491156
 20
322.5337630748535
 30
0.0
 40
0.0010000000000002
100
AcDbArc
 50
180.0
 51
270.0
  0
LINE
  5
1F4
330
1F
100
AcDbEntity
  8
3
  6
Continuous
100
AcDbLine
 10
183.4844928374975
 20
322.5494197417833
 30
0.0
 11
183.4943767491157
 21
322.5494197417833
 31
0.0
  0
LINE
  5
1F5
330
1F
100
AcDbEntity
  8
3
  6
Continuous
100
AcDbLine
 10
183.4943767491157
 20
322.5577630748535
 30
0.0
 11
183.4827289140789
 21
322.5577630748535
 31
0.0
  0
ARC
  5
1F7
330
1F
100
AcDbEntity
  8
3
  6
Continuous
100
AcDbCircle
 10
183.4943767491157
 20
322.5484197417833
 30
0.0
 40
0.0009999999999999
100
AcDbArc
 50
0.0
 51
90.0
  0
ARC
  5
1F9
330
1F
100
AcDbEntity
  8
3
  6
Continuous
100
AcDbCircle
 10
183.4923767491156
 20
322.5656882025067
 30
0.0
 40
0.0030000000000003
100
AcDbArc
 50
0.0
 51
67.96369143389447
  0
ARC
  5
1FE
330
1F
100
AcDbEntity
  8
3
  6
Continuous
100
AcDbCircle
 10
183.4943767491157
 20
322.5587630748536
 30
0.0
 40
0.0010000000000002
100
AcDbArc
 50
270.0
 51
0.0
  0
LINE
  5
1FF
330
1F
100
AcDbEntity
  8
3
  6
Continuous
100
AcDbLine
 10
183.4953767491157
 20
322.5656882025067
 30
0.0
 11
183.4953767491157
 21
322.5587630748536
 31
0.0
  0
LWPOLYLINE
  5
202
330
1F
100
AcDbEntity
  8
3
  6
Continuous
100
AcDbPolyline
 90
        5
 70
   128
 43
0.0
 10
183.4844928374975
 20
322.5494197417833
 10
183.4836237222384
 20
322.5494575752492
 10
183.4827546069794
 20
322.5495719482036
 10
183.4818784028033
 20
322.5497674983142
 10
183.4810163764613
 20
322.5500433843134
  0
LWPOLYLINE
  5
203
330
1F
100
AcDbEntity
  8
3
  6
Continuous
100
AcDbPolyline
 90
        3
 70
   128
 43
0.0
 10
183.4810163764613
 20
322.5500433843134
 10
183.4808991084964
 20
322.5500860275669
 10
183.4807812996288
 20
322.5501272117365
  0
ARC
  5
204
330
1F
100
AcDbEntity
  8
3
  6
Continuous
100
AcDbCircle
 10
183.4628767491157
 20
322.5553358240891
 30
0.0
 40
0.0200000000000002
100
AcDbArc
 50
6.970745049053467
 51
71.83765768561819
  0
ARC
  5
206
330
1F
100
AcDbEntity
  8
3
  6
Continuous
100
AcDbCircle
 10
183.5664173108908
 20
322.5742656207966
 30
0.0
 40
0.0100000000000002
100
AcDbArc
 50
108.0973185873809
 51
140.8196518177003
  0
ARC
  5
207
330
1F
100
AcDbEntity
  8
3
  6
Continuous
100
AcDbCircle
 10
183.4693361873405
 20
322.5742656207966
 30
0.0
 40
0.0100000000000002
100
AcDbArc
 50
39.18034818229973
 51
71.90268141261907
  0
LINE
  5
208
330
1F
100
AcDbEntity
  8
3
  6
Continuous
100
AcDbLine
 10
183.7053767491156
 20
322.8127630748535
 30
0.0
 11
183.3303767491156
 21
322.8127630748535
 31
0.0
  0
LINE
  5
20A
330
1F
100
AcDbEntity
  8
3
  6
Continuous
100
AcDbLine
 10
183.7003767491156
 20
322.7727630748536
 30
0.0
 11
183.7003767491156
 21
322.8077630748535
 31
0.0
  0
LINE
  5
20B
330
1F
100
AcDbEntity
  8
3
  6
Continuous
100
AcDbLine
 10
183.7103767491156
 20
322.7727630748536
 30
0.0
 11
183.7338488850706
 21
322.7727630748536
 31
0.0
  0
ARC
  5
20D
330
1F
100
AcDbEntity
  8
3
  6
Continuous
100
AcDbCircle
 10
183.7198721688537
 20
322.7747630748536
 30
0.0
 40
0.0095045802619339
100
AcDbArc
 50
5.039787592106731
 51
180.5248556854684
  0
ARC
  5
20E
330
1F
100
AcDbEntity
  8
3
  6
Continuous
100
AcDbCircle
 10
183.7293767491156
 20
322.7697630748536
 30
0.0
 40
0.0049999999999992
100
AcDbArc
 50
41.8103148957617
 51
80.79901828727331
  0
ARC
  5
20F
330
1F
100
AcDbEntity
  8
3
  6
Continuous
100
AcDbCircle
 10
183.7303361377237
 20
322.7756858760066
 30
0.0
 40
0.001000000000036
100
AcDbArc
 50
185.0397876154103
 51
260.7990183025566
  0
LINE
  5
210
330
1F
100
AcDbEntity
  8
3
  6
Continuous
100
AcDbLine
 10
183.7053767491156
 20
322.8127630748535
 30
0.0
 11
183.7353767491156
 21
322.8127630748535
 31
0.0
  0
LINE
  5
211
330
1F
100
AcDbEntity
  8
3
  6
Continuous
100
AcDbLine
 10
183.7103767491156
 20
322.8027630748536
 30
0.0
 11
183.7303767491157
 21
322.8027630748536
 31
0.0
  0
ARC
  5
212
330
1F
100
AcDbEntity
  8
3
  6
Continuous
100
AcDbCircle
 10
183.7198721688537
 20
322.7747630748536
 30
0.0
 40
0.0195045802619336
100
AcDbArc
 50
57.41365982224658
 51
119.1324553300057
  0
LINE
  5
213
330
1F
100
AcDbEntity
  8
3
  6
Continuous
100
AcDbLine
 10
183.7303767491157
 20
322.8027630748536
 30
0.0
 11
183.7303767491157
 21
322.7911972601
 31
0.0
  0
ARC
  5
214
330
1F
100
AcDbEntity
  8
3
  6
Continuous
100
AcDbCircle
 10
183.7053767491156
 20
322.8077630748535
 30
0.0
 40
0.005
100
AcDbArc
 50
90.0
 51
180.0
  0
LINE
  5
215
330
1F
100
AcDbEntity
  8
3
  6
Continuous
100
AcDbLine
 10
183.7103767491156
 20
322.791800259339
 30
0.0
 11
183.7103767491156
 21
322.8027630748536
 31
0.0
  0
LINE
  5
216
330
1F
100
AcDbEntity
  8
3
  6
Continuous
100
AcDbLine
 10
183.2953767491156
 20
322.7737630748535
 30
0.0
 11
183.2953767491156
 21
322.8077630748535
 31
0.0
  0
ARC
  5
217
330
1F
100
AcDbEntity
  8
3
  6
Continuous
100
AcDbCircle
 10
183.3343767491157
 20
322.7862630748536
 30
0.0
 40
0.0010000000000001
100
AcDbArc
 50
270.0
 51
0.0
  0
LWPOLYLINE
  5
218
330
1F
100
AcDbEntity
  8
3
  6
Continuous
100
AcDbPolyline
 90
       11
 70
   128
 43
0.0
 10
183.3358713069894
 20
322.7727630748535
 10
183.3358572539466
 20
322.7750220853891
 10
183.3358173822414
 20
322.7772181661977
 10
183.3357555347624
 20
322.7792878220614
 10
183.3356791017985
 20
322.7811756231173
 10
183.3355963029717
 20
322.7828262991093
 10
183.3355165314273
 20
322.7841949840968
 10
183.3354706734286
 20
322.7849121413985
 10
183.3354154055111
 20
322.7857250958297
 10
183.3353831979833
 20
322.7861746496748
 10
183.3353767491156
 20
322.7862630748536
  0
ARC
  5
219
330
1F
100
AcDbEntity
  8
3
  6
Continuous
100
AcDbCircle
 10
183.3263767491157
 20
322.7862630748536
 30
0.0
 40
0.0010000000000002
100
AcDbArc
 50
180.0
 51
270.0
  0
LWPOLYLINE
  5
21A
330
1F
100
AcDbEntity
  8
3
  6
Continuous
100
AcDbPolyline
 90
       10
 70
   128
 43
0.0
 10
183.3253767491156
 20
322.7862630748536
 10
183.3253769396397
 20
322.7862603860082
 10
183.3253936799613
 20
322.786023222061
 10
183.3254350510471
 20
322.7854137555577
 10
183.3255548525064
 20
322.7834599038128
 10
183.3256347838277
 20
322.7819271568218
 10
183.3257127319972
 20
322.7801352350591
 10
183.3257795669053
 20
322.7781368715619
 10
183.3258283490665
 20
322.7759860480008
 10
183.3258403055984
 20
322.7751802677987
  0
LWPOLYLINE
  5
21B
330
1F
100
AcDbEntity
  8
3
  6
Continuous
100
AcDbPolyline
 90
        3
 70
   128
 43
0.0
 10
183.3258549255022
 20
322.7746760097458
 10
183.3258508887054
 20
322.7749282442045
 10
183.3258397803044
 20
322.7751795354187
  0
ARC
  5
21C
330
1F
100
AcDbEntity
  8
3
  6
Continuous
100
AcDbCircle
 10
183.3348332875216
 20
322.7592630748536
 30
0.0
 40
0.0010000000000001
100
AcDbArc
 50
3.873742083476425
 51
90.0
  0
LWPOLYLINE
  5
21D
330
1F
100
AcDbEntity
  8
3
  6
Continuous
100
AcDbPolyline
 90
       11
 70
   128
 43
0.0
 10
183.3358310028661
 20
322.7593306329112
 10
183.3358315436848
 20
322.7594209673674
 10
183.3358341994973
 20
322.7598727373536
 10
183.335838742294
 20
322.760687823043
 10
183.3358447038153
 20
322.7618481651135
 10
183.3358513818044
 20
322.7633160910309
 10
183.3358580331465
 20
322.7650541755837
 10
183.335863918374
 20
322.7670094408992
 10
183.3358683458675
 20
322.7691292836686
 10
183.3358708623355
 20
322.7713514808761
 10
183.3358713069894
 20
322.7727630748535
  0
ARC
  5
21E
330
1F
100
AcDbEntity
  8
3
  6
Continuous
100
AcDbCircle
 10
183.3268156758892
 20
322.7592630748536
 30
0.0
 40
0.0010000000000001
100
AcDbArc
 50
90.0
 51
183.724414177445
  0
LWPOLYLINE
  5
21F
330
1F
100
AcDbEntity
  8
3
  6
Continuous
100
AcDbPolyline
 90
       11
 70
   128
 43
0.0
 10
183.3258549255022
 20
322.7746760097458
 10
183.3258553684864
 20
322.7739902738782
 10
183.3258554329758
 20
322.7717049324325
 10
183.3258534193603
 20
322.7694494418092
 10
183.3258495005179
 20
322.7672885931875
 10
183.3258441621315
 20
322.765282165409
 10
183.3258379741163
 20
322.763489490004
 10
183.3258316475438
 20
322.7619583311525
 10
183.3258259008474
 20
322.7607359458439
 10
183.3258213593153
 20
322.7598526448805
 10
183.3258177878592
 20
322.7591981173315
  0
LWPOLYLINE
  5
220
330
1F
100
AcDbEntity
  8
3
  6
Continuous
100
AcDbPolyline
 90
        3
 70
   128
 43
0.0
 10
183.3258397803044
 20
322.7751795354187
 10
183.3258400325328
 20
322.7751800847865
 10
183.3258403055984
 20
322.7751802677987
  0
LINE
  5
221
330
1F
100
AcDbEntity
  8
3
  6
Continuous
100
AcDbLine
 10
183.3268156758892
 20
322.7602630748537
 30
0.0
 11
183.3348332875216
 21
322.7602630748537
 31
0.0
  0
LINE
  5
222
330
1F
100
AcDbEntity
  8
3
  6
Continuous
100
AcDbLine
 10
183.3343767491157
 20
322.7852630748536
 30
0.0
 11
183.3263767491157
 21
322.7852630748536
 31
0.0
  0
LINE
  5
223
330
1F
100
AcDbEntity
  8
3
  6
Continuous
100
AcDbLine
 10
183.3019046131606
 20
322.7727630748536
 30
0.0
 11
183.3048362780547
 21
322.7727630748536
 31
0.0
  0
ARC
  5
224
330
1F
100
AcDbEntity
  8
3
  6
Continuous
100
AcDbCircle
 10
183.3063767491156
 20
322.7697630748535
 30
0.0
 40
0.0049999999999998
100
AcDbArc
 50
129.0943969876928
 51
138.189685104221
  0
ARC
  5
225
330
1F
100
AcDbEntity
  8
3
  6
Continuous
100
AcDbCircle
 10
183.3019046131606
 20
322.7737630748535
 30
0.0
 40
0.0010000000000006
100
AcDbArc
 50
270.0
 51
318.1896851042013
  0
LINE
  5
226
330
1F
100
AcDbEntity
  8
3
  6
Continuous
100
AcDbLine
 10
183.3019046131606
 20
322.7727630748536
 30
0.0
 11
183.2963767491157
 21
322.7727630748536
 31
0.0
  0
ARC
  5
227
330
1F
100
AcDbEntity
  8
3
  6
Continuous
100
AcDbCircle
 10
183.2963767491157
 20
322.7737630748535
 30
0.0
 40
0.0009999999999999
100
AcDbArc
 50
180.0
 51
270.0
  0
LWPOLYLINE
  5
228
330
1F
100
AcDbEntity
  8
3
  6
Continuous
100
AcDbPolyline
 90
        8
 70
   128
 43
0.0
 10
183.3032237495454
 20
322.7736436152425
 10
183.3035161933372
 20
322.7738085971907
 10
183.3038467616667
 20
322.7738674783773
 10
183.3041781854623
 20
322.773813620395
 10
183.3044730992048
 20
322.7736530953229
 10
183.3046982536071
 20
322.7734040011455
 10
183.3048282642185
 20
322.7730944213416
 10
183.3048523641633
 20
322.7729304885282
  0
LINE
  5
229
330
1F
100
AcDbEntity
  8
3
  6
Continuous
100
AcDbLine
 10
183.3003767491156
 20
322.8127630748535
 30
0.0
 11
183.3303767491156
 21
322.8127630748535
 31
0.0
  0
LINE
  5
22A
330
1F
100
AcDbEntity
  8
3
  6
Continuous
100
AcDbLine
 10
183.3053767491157
 20
322.8027630748536
 30
0.0
 11
183.3253767491156
 21
322.8027630748536
 31
0.0
  0
LWPOLYLINE
  5
22B
330
1F
100
AcDbEntity
  8
3
  6
Continuous
100
AcDbPolyline
 90
        3
 70
   128
 43
0.0
 10
183.3140764336709
 20
322.7939484829515
 10
183.3156707773975
 20
322.7941671091202
 10
183.3172862040798
 20
322.7942630748535
  0
LINE
  5
22C
330
1F
100
AcDbEntity
  8
3
  6
Continuous
100
AcDbLine
 10
183.3181648520929
 20
322.7942630748537
 30
0.0
 11
183.3172862040798
 21
322.7942630748537
 31
0.0
  0
ARC
  5
22D
330
1F
100
AcDbEntity
  8
3
  6
Continuous
100
AcDbCircle
 10
183.3303767491156
 20
322.8077630748535
 30
0.0
 40
0.0050000000000003
100
AcDbArc
 50
0.0
 51
90.0
  0
LWPOLYLINE
  5
22E
330
1F
100
AcDbEntity
  8
3
  6
Continuous
100
AcDbPolyline
 90
        4
 70
   128
 43
0.0
 10
183.3181648521627
 20
322.7942630748535
 10
183.3217032525955
 20
322.7938894051755
 10
183.325229345192
 20
322.7928888940415
 10
183.3253767491156
 20
322.7928274585104
  0
LINE
  5
22F
330
1F
100
AcDbEntity
  8
9
  6
Continuous
100
AcDbLine
 10
183.3181648520929
 20
322.7942630748537
 30
0.0
 11
183.318785695896
 21
322.7942630748537
 31
0.0
  0
LINE
  5
230
330
1F
100
AcDbEntity
  8
3
  6
Continuous
100
AcDbLine
 10
183.3353767491157
 20
322.8077630748535
 30
0.0
 11
183.3353767491157
 21
322.7862630748536
 31
0.0
  0
LINE
  5
231
330
1F
100
AcDbEntity
  8
3
  6
Continuous
100
AcDbLine
 10
183.3253767491156
 20
322.8027630748536
 30
0.0
 11
183.3253767491156
 21
322.7862630748536
 31
0.0
  0
ARC
  5
233
330
1F
100
AcDbEntity
  8
3
  6
Continuous
100
AcDbCircle
 10
183.3003767491156
 20
322.8077630748535
 30
0.0
 40
0.005
100
AcDbArc
 50
90.0
 51
180.0
  0
LINE
  5
234
330
1F
100
AcDbEntity
  8
3
  6
Continuous
100
AcDbLine
 10
183.3053767491157
 20
322.7911972601
 30
0.0
 11
183.3053767491157
 21
322.8027630748536
 31
0.0
  0
ARC
  5
235
330
1F
100
AcDbEntity
  8
3
  6
Continuous
100
AcDbCircle
 10
183.3158813293776
 20
322.7747630748536
 30
0.0
 40
0.0195045802619337
100
AcDbArc
 50
100.3774951775642
 51
122.5863401777534
  0
LWPOLYLINE
  5
236
330
1F
100
AcDbEntity
  8
3
  6
Continuous
100
AcDbPolyline
 90
        5
 70
   128
 43
0.0
 10
183.3123679147039
 20
322.7939486050396
 10
183.3124046180527
 20
322.7939486162374
 10
183.312554722724
 20
322.7939486281196
 10
183.3131241695319
 20
322.7939486434769
 10
183.3140773599709
 20
322.7939486511035
  0
LINE
  5
251
330
1F
100
AcDbEntity
  8
3
  6
Continuous
100
AcDbLine
 10
183.7403767491156
 20
322.8077630748535
 30
0.0
 11
183.7403767491156
 21
322.7737630748535
 31
0.0
  0
LINE
  5
252
330
1F
100
AcDbEntity
  8
3
  6
Continuous
100
AcDbLine
 10
183.7393767491157
 20
322.7727630748536
 30
0.0
 11
183.7338488850706
 21
322.7727630748536
 31
0.0
  0
ARC
  5
253
330
1F
100
AcDbEntity
  8
3
  6
Continuous
100
AcDbCircle
 10
183.7338488850706
 20
322.7737630748535
 30
0.0
 40
0.0010000000000007
100
AcDbArc
 50
221.8103148957986
 51
270.0
  0
ARC
  5
254
330
1F
100
AcDbEntity
  8
3
  6
Continuous
100
AcDbCircle
 10
183.7393767491157
 20
322.7737630748535
 30
0.0
 40
0.0009999999999999
100
AcDbArc
 50
270.0
 51
0.0
  0
ARC
  5
255
330
1F
100
AcDbEntity
  8
3
  6
Continuous
100
AcDbCircle
 10
183.7353767491156
 20
322.8077630748535
 30
0.0
 40
0.005
100
AcDbArc
 50
0.0
 51
90.0
  0
ARC
  5
38E
330
1F
100
AcDbEntity
  8
3
  6
Continuous
100
AcDbCircle
 10
183.0922211315908
 20
322.8071562837373
 30
0.0
 40
0.005
100
AcDbArc
 50
0.000000000000007
 51
90.0
  0
LINE
  5
391
330
1F
100
AcDbEntity
  8
3
  6
Continuous
100
AcDbLine
 10
182.6532211315908
 20
322.7721562837373
 30
0.0
 11
183.0962211315908
 21
322.7721562837373
 31
0.0
  0
ARC
  5
392
330
1F
100
AcDbEntity
  8
3
  6
Continuous
100
AcDbCircle
 10
182.8583930065908
 20
322.7721562837373
 30
0.0
 40
0.208828125
100
AcDbArc
 50
288.1623423143917
 51
0.000000000000007
  0
LINE
  5
393
330
1F
100
AcDbEntity
  8
3
  6
Continuous
100
AcDbLine
 10
183.0972211315908
 20
322.8071562837373
 30
0.0
 11
183.0972211315908
 21
322.7731562837373
 31
0.0
  0
ARC
  5
394
330
1F
100
AcDbEntity
  8
3
  6
Continuous
100
AcDbCircle
 10
183.0962211315908
 20
322.7731562837373
 30
0.0
 40
0.001
100
AcDbArc
 50
270.0
 51
0.000000000000007
  0
LWPOLYLINE
  5
396
330
1F
100
AcDbEntity
  8
3
  6
Continuous
100
AcDbPolyline
 90
       21
 70
   128
 43
0.0
 10
182.6838942285202
 20
322.7721562837373
 10
182.6841147437196
 20
322.760568041056
 10
182.6852515879869
 20
322.7470573692685
 10
182.6872514958732
 20
322.7336811422244
 10
182.6901137710469
 20
322.7204380340818
 10
182.693851309088
 20
322.7073285423075
 10
182.6984354702476
 20
322.6944770863864
 10
182.703805653199
 20
322.6820345971569
 10
182.7099515932938
 20
322.669994647227
 10
182.7168732992133
 20
322.6583558402547
 10
182.724581950672
 20
322.6471227617009
 10
182.7330198155668
 20
322.6363935202692
 10
182.7420728724091
 20
322.6263058608444
 10
182.7517317646922
 20
322.6168518889248
 10
182.7619964171873
 20
322.6080307688828
 10
182.7728760962602
 20
322.5998517467098
 10
182.7843227346597
 20
322.5923679601617
 10
182.7961684726888
 20
322.5856937104414
 10
182.8084007623744
 20
322.5798308736364
 10
182.8210242940014
 20
322.574788519818
 10
182.8340514378922
 20
322.5705962579032
  0
LWPOLYLINE
  5
399
330
1F
100
AcDbEntity
  8
3
  6
Continuous
100
AcDbPolyline
 90
       19
 70
   128
 43
0.0
 10
182.6616967466384
 20
322.772323697412
 10
182.6632020092898
 20
322.7563167727112
 10
182.6656783845951
 20
322.7404792627404
 10
182.6691108139481
 20
322.724856087153
 10
182.6734882638215
 20
322.7094867459412
 10
182.6788017529844
 20
322.6944079757349
 10
182.6850422920173
 20
322.6796565241902
 10
182.6935655296639
 20
322.6627540123788
 10
182.7033058488853
 20
322.6464758170889
 10
182.7142109622376
 20
322.6309326555035
 10
182.7262193397465
 20
322.6162283805541
 10
182.7378029023045
 20
322.6038779533669
 10
182.7501321957393
 20
322.5923225894196
 10
182.763145517934
 20
322.581616653317
 10
182.7767986195257
 20
322.5717910099986
 10
182.7910535555615
 20
322.5628680356835
 10
182.8058722440457
 20
322.5548702911162
 10
182.8212130101639
 20
322.5478251746746
 10
182.8370304453852
 20
322.5417651120867
  0
LINE
  5
39A
330
1F
100
AcDbEntity
  8
3
  6
Continuous
100
AcDbLine
 10
182.9234869219629
 20
322.5737325755456
 30
0.0
 11
182.8243055627428
 21
322.5737325755456
 31
0.0
  0
LINE
  5
39B
330
1F
100
AcDbEntity
  8
3
  6
Continuous
100
AcDbLine
 10
182.8460259434342
 20
322.5547290329728
 30
0.0
 11
182.9097211315908
 21
322.5547290329728
 31
0.0
  0
LINE
  5
39C
330
1F
100
AcDbEntity
  8
3
  6
Continuous
100
AcDbLine
 10
182.9097211315908
 20
322.5331562837373
 30
0.0
 11
182.8397211315908
 21
322.5331562837373
 31
0.0
  0
LINE
  5
39D
330
1F
100
AcDbEntity
  8
3
  6
Continuous
100
AcDbLine
 10
182.8407211315908
 20
322.5321562837373
 30
0.0
 11
182.9087211315908
 21
322.5321562837373
 31
0.0
  0
LINE
  5
39E
330
1F
100
AcDbEntity
  8
3
  6
Continuous
100
AcDbLine
 10
182.9097211315908
 20
322.5547290329728
 30
0.0
 11
182.9097211315908
 21
322.5331562837373
 31
0.0
  0
ARC
  5
39F
330
1F
100
AcDbEntity
  8
3
  6
Continuous
100
AcDbCircle
 10
182.9087211315908
 20
322.5331562837373
 30
0.0
 40
0.0010000000000001
100
AcDbArc
 50
270.0
 51
0.000000000000007
  0
ARC
  5
3A0
330
1F
100
AcDbEntity
  8
3
  6
Continuous
100
AcDbCircle
 10
182.9297211315908
 20
322.5547290329728
 30
0.0
 40
0.0200000000000001
100
AcDbArc
 50
108.1623423143916
 51
180.0
  0
LINE
  5
3A1
330
1F
100
AcDbEntity
  8
3
  6
Continuous
100
AcDbLine
 10
182.846058873357
 20
322.5553475066475
 30
0.0
 11
182.8446083455255
 21
322.544356752897
 31
0.0
  0
LINE
  5
3A3
330
1F
100
AcDbEntity
  8
3
  6
Continuous
100
AcDbLine
 10
182.8397211315908
 20
322.5331562837373
 30
0.0
 11
182.8397211315908
 21
322.5379854695918
 31
0.0
  0
ARC
  5
3A4
330
1F
100
AcDbEntity
  8
3
  6
Continuous
100
AcDbCircle
 10
182.8407211315908
 20
322.5331562837373
 30
0.0
 40
0.0010000000000001
100
AcDbArc
 50
180.0
 51
270.0
  0
LWPOLYLINE
  5
3A5
330
1F
100
AcDbEntity
  8
3
  6
Continuous
100
AcDbPolyline
 90
        8
 70
   128
 43
0.0
 10
182.8446083455255
 20
322.544356752897
 10
182.8445369845566
 20
322.5435659590926
 10
182.844450673972
 20
322.5432993554721
 10
182.8440557253276
 20
322.5426580248147
 10
182.8439038698853
 20
322.5425029610172
 10
182.8430824692883
 20
322.5419991036251
 10
182.8420078314312
 20
322.5418047495072
 10
182.8415331577835
 20
322.5418398851949
  0
LWPOLYLINE
  5
3A8
330
1F
100
AcDbEntity
  8
3
  6
Continuous
100
AcDbPolyline
 90
        5
 70
   128
 43
0.0
 10
182.8415331577835
 20
322.5418398851949
 10
182.8390295711757
 20
322.541828490596
 10
182.837540040087
 20
322.5417885020352
 10
182.8370304453852
 20
322.5417651120862
 10
182.8370304453852
 20
322.5417651120867
  0
LWPOLYLINE
  5
3AB
330
1F
100
AcDbEntity
  8
3
  6
Continuous
100
AcDbPolyline
 90
        5
 70
   128
 43
0.0
 10
182.8370304453852
 20
322.5417651120867
 10
182.8382077205836
 20
322.5411186588905
 10
182.8391046517358
 20
322.5401189623685
 10
182.8396201166583
 20
322.5388787307201
 10
182.8397211315907
 20
322.5379854695918
  0
LWPOLYLINE
  5
3AF
330
1F
100
AcDbEntity
  8
3
  6
Continuous
100
AcDbPolyline
 90
        9
 70
   128
 43
0.0
 10
182.8340514378922
 20
322.5705962579032
 10
182.8368133354697
 20
322.5695993892429
 10
182.8394563601017
 20
322.5681728447612
 10
182.8418248516491
 20
322.5663410188123
 10
182.8444249976194
 20
322.5631777243033
 10
182.8453341477228
 20
322.5613506496594
 10
182.845927236913
 20
322.5594008965322
 10
182.8461671248787
 20
322.5573806336872
 10
182.846058873357
 20
322.5553475066474
  0
LINE
  5
3B0
330
1F
100
AcDbEntity
  8
3
  6
Continuous
100
AcDbLine
 10
182.8747211315908
 20
322.8121562837373
 30
0.0
 11
182.6572211315908
 21
322.8121562837373
 31
0.0
  0
LINE
  5
3B2
330
1F
100
AcDbEntity
  8
3
  6
Continuous
100
AcDbLine
 10
183.0922211315908
 20
322.8121562837373
 30
0.0
 11
182.8747211315908
 21
322.8121562837373
 31
0.0
  0
LINE
  5
3B3
330
1F
100
AcDbEntity
  8
3
  6
Continuous
100
AcDbLine
 10
182.6522211315908
 20
322.7731562837373
 30
0.0
 11
182.6522211315908
 21
322.8071562837373
 31
0.0
  0
ARC
  5
3B4
330
1F
100
AcDbEntity
  8
3
  6
Continuous
100
AcDbCircle
 10
182.6532211315908
 20
322.7731562837373
 30
0.0
 40
0.001
100
AcDbArc
 50
180.0
 51
270.0
  0
ARC
  5
3B5
330
1F
100
AcDbEntity
  8
3
  6
Continuous
100
AcDbCircle
 10
182.6572211315908
 20
322.8071562837373
 30
0.0
 40
0.005
100
AcDbArc
 50
90.0
 51
180.0
  0
CIRCLE
  5
3DC
330
1F
100
AcDbEntity
  8
3
  6
Continuous
100
AcDbCircle
 10
181.6921983980565
 20
322.6672573977122
 30
0.0
 40
0.0325000000000002
  0
LINE
  5
3DF
330
1F
100
AcDbEntity
  8
sanindusa
100
AcDbLine
 10
183.5633109914342
 20
322.5837709234976
 30
0.0
 11
183.472442506797
 21
322.5837709234974
 31
0.0
  0
LINE
  5
3E1
330
1F
100
AcDbEntity
  8
sanindusa
100
AcDbLine
 10
183.4948643932525
 20
322.5673649930862
 30
0.0
 11
183.5408891049787
 21
322.5673649930862
 31
0.0
  0
ENDSEC
  0
SECTION
  2
OBJECTS
  0
DICTIONARY
  5
C
330
0
100
AcDbDictionary
281
     1
  3
ACAD_COLOR
350
3C8
  3
ACAD_GROUP
350
D
  3
ACAD_LAYOUT
350
1A
  3
ACAD_MATERIAL
350
3C7
  3
ACAD_MLINESTYLE
350
17
  3
ACAD_PLOTSETTINGS
350
19
  3
ACAD_PLOTSTYLENAME
350
E
  3
ACAD_TABLESTYLE
350
3C9
  3
ACDBHEADERROUNDTRIPXREC
350
3ED
  3
AcDbVariableDictionary
350
3BD
  3
ASE_INDEX_DICTIONARY
350
3B9
  3
DWGPROPS
350
3EC
  0
DICTIONARY
  5
3DD
330
1F
100
AcDbDictionary
280
     1
281
     1
  3
ACAD_SORTENTS
360
3DE
  0
DICTIONARY
  5
3C8
102
{ACAD_REACTORS
330
C
102
}
330
C
100
AcDbDictionary
281
     1
  0
DICTIONARY
  5
D
102
{ACAD_REACTORS
330
C
102
}
330
C
100
AcDbDictionary
281
     1
  0
DICTIONARY
  5
1A
102
{ACAD_REACTORS
330
C
102
}
330
C
100
AcDbDictionary
281
     1
  3
Layout1
350
1E
  3
Layout2
350
26
  3
Model
350
22
  0
DICTIONARY
  5
3C7
102
{ACAD_REACTORS
330
C
102
}
330
C
100
AcDbDictionary
281
     1
  0
DICTIONARY
  5
17
102
{ACAD_REACTORS
330
C
102
}
330
C
100
AcDbDictionary
281
     1
  3
Standard
350
18
  0
DICTIONARY
  5
19
102
{ACAD_REACTORS
330
C
102
}
330
C
100
AcDbDictionary
281
     1
  0
ACDBDICTIONARYWDFLT
  5
E
102
{ACAD_REACTORS
330
C
102
}
330
C
100
AcDbDictionary
281
     1
  3
Normal
350
F
100
AcDbDictionaryWithDefault
340
F
  0
DICTIONARY
  5
3C9
102
{ACAD_REACTORS
330
C
102
}
330
C
100
AcDbDictionary
281
     1
  3
Standard
350
3CA
  0
DICTIONARY
  5
3ED
102
{ACAD_REACTORS
330
C
102
}
330
C
100
AcDbDictionary
281
     1
  0
DICTIONARY
  5
3BD
102
{ACAD_REACTORS
330
C
102
}
330
C
100
AcDbDictionary
281
     1
  3
CTABLESTYLE
350
3CD
  3
DIMASSOC
350
3BF
  3
HIDETEXT
350
3BE
  3
PROJECTNAME
350
3CE
  0
DICTIONARY
  5
3B9
102
{ACAD_REACTORS
330
C
102
}
330
C
100
AcDbDictionary
281
     1
  3
ASEBlockHierarchyIndexRecord
350
3BB
1001
DCO15
1040
1471245887.718
  0
XRECORD
  5
3EC
102
{ACAD_REACTORS
330
C
102
}
330
C
100
AcDbXrecord
280
     1
  1
DWGPROPS COOKIE
  2

  3

  4

  6

  7

  8
CAD
  9

300
=
301
=
302
=
303
=
304
=
305
=
306
=
307
=
308
=
309
=
 40
0.0162653587962963
 41
2452831.478472396
 42
2453977.643516342
  1

 90
        0
  0
SORTENTSTABLE
  5
3DE
102
{ACAD_REACTORS
330
3DD
102
}
330
3DD
100
AcDbSortentsTable
330
1F
331
229
  5
22A
331
3B5
  5
3B6
331
393
  5
394
331
1C1
  5
1C2
331
3A4
  5
3A5
331
252
  5
253
331
207
  5
208
331
1E5
  5
1E6
331
218
  5
219
331
3B3
  5
3B4
331
391
  5
392
331
1BF
  5
1C0
331
216
  5
217
331
1F4
  5
1F5
331
227
  5
228
331
1E3
  5
1E4
331
236
  5
251
331
214
  5
215
331
1F2
  5
1F3
331
1BD
  5
1BF
331
3A0
  5
3A1
331
1CE
  5
1CF
331
225
  5
226
331
203
  5
204
331
1E1
  5
1E2
331
1A4
  5
1A4
331
3AF
  5
3B0
331
3DC
  5
1A9
331
234
  5
235
331
212
  5
213
331
1F0
  5
1F1
331
39E
  5
39F
331
1CC
  5
1CD
331
223
  5
224
331
210
  5
211
331
1EE
  5
1EF
331
39C
  5
39D
331
1CA
  5
1CB
331
221
  5
222
331
1FF
  5
202
331
3AB
  5
3AF
331
230
  5
231
331
20E
  5
20F
331
39A
  5
39B
331
1C8
  5
1CA
331
21F
  5
220
331
1DB
  5
1DC
331
22E
  5
22F
331
21D
  5
21E
331
1D9
  5
1DA
331
1C6
  5
1C7
331
22C
  5
22D
331
20A
  5
20B
331
1E8
  5
1E9
331
396
  5
399
331
1C4
  5
1C5
331
255
  5
38E
331
21B
  5
21C
331
1F9
  5
1FE
331
1D7
  5
1D8
331
22A
  5
22B
331
208
  5
20A
331
394
  5
396
331
1C2
  5
1C3
331
253
  5
254
331
219
  5
21A
331
1F7
  5
1F9
331
3A5
  5
3A8
331
1A9
  5
1AA
331
1D5
  5
1D6
331
1E6
  5
1E7
331
228
  5
229
331
392
  5
393
331
1C0
  5
1C1
331
3B4
  5
3B5
331
3A3
  5
3A4
331
251
  5
252
331
217
  5
218
331
1F5
  5
1F7
331
206
  5
207
331
1E4
  5
1E5
331
1D3
  5
1D5
331
3B2
  5
3B3
331
1D1
  5
1D3
331
215
  5
216
331
1F3
  5
1F4
331
3A1
  5
3A3
331
1CF
  5
1D1
331
226
  5
227
331
204
  5
206
331
1E2
  5
1E3
331
3B0
  5
3B2
331
38E
  5
391
331
1BC
  5
1BD
331
235
  5
236
331
213
  5
214
331
1F1
  5
1F2
331
39F
  5
3A0
331
1CD
  5
1CE
331
224
  5
225
331
202
  5
203
331
233
  5
234
331
211
  5
212
331
1EF
  5
1F0
331
39D
  5
39E
331
1CB
  5
1CC
331
222
  5
223
331
1DE
  5
1E1
331
39B
  5
39C
331
231
  5
233
331
20F
  5
210
331
220
  5
221
331
1FE
  5
1FF
331
1DC
  5
1DE
331
22F
  5
230
331
20D
  5
20E
331
399
  5
39A
331
1C7
  5
1C8
331
21E
  5
21F
331
1DA
  5
1DB
331
3A8
  5
3AB
331
22D
  5
22E
331
20B
  5
20D
331
21C
  5
21D
331
1D8
  5
1D9
331
1C5
  5
1C6
331
22B
  5
22C
331
1D6
  5
1D7
331
1C3
  5
1C4
331
254
  5
255
331
1AA
  5
1BC
331
21A
  5
21B
  0
LAYOUT
  5
1E
102
{ACAD_XDICTIONARY
360
3EE
102
}
102
{ACAD_REACTORS
330
1A
102
}
330
1A
100
AcDbPlotSettings
  1

  2
PLOTER 500
  4

  6

 40
0.0
 41
0.0
 42
0.0
 43
0.0
 44
0.0
 45
0.0
 46
0.0
 47
0.0
 48
0.0
 49
0.0
140
0.0
141
0.0
142
1.0
143
1.0
 70
   688
 72
     0
 73
     0
 74
     5
  7
monochrome.ctb
 75
    16
147
1.0
148
0.0
149
0.0
100
AcDbLayout
  1
Layout1
 70
     1
 71
     1
 10
0.0
 20
0.0
 11
420.0
 21
297.0
 12
0.0
 22
0.0
 32
0.0
 14
1.000000000000000E+20
 24
1.000000000000000E+20
 34
1.000000000000000E+20
 15
-1.000000000000000E+20
 25
-1.000000000000000E+20
 35
-1.000000000000000E+20
146
0.0
 13
0.0
 23
0.0
 33
0.0
 16
1.0
 26
0.0
 36
0.0
 17
0.0
 27
1.0
 37
0.0
 76
     0
330
1B
  0
LAYOUT
  5
26
102
{ACAD_XDICTIONARY
360
3F2
102
}
102
{ACAD_REACTORS
330
1A
102
}
330
1A
100
AcDbPlotSettings
  1

  2
PLOTER 500
  4

  6

 40
0.0
 41
0.0
 42
0.0
 43
0.0
 44
0.0
 45
0.0
 46
0.0
 47
0.0
 48
0.0
 49
0.0
140
0.0
141
0.0
142
1.0
143
1.0
 70
   688
 72
     0
 73
     0
 74
     5
  7
monochrome.ctb
 75
    16
147
1.0
148
0.0
149
0.0
100
AcDbLayout
  1
Layout2
 70
     1
 71
     2
 10
0.0
 20
0.0
 11
12.0
 21
9.0
 12
0.0
 22
0.0
 32
0.0
 14
0.0
 24
0.0
 34
0.0
 15
0.0
 25
0.0
 35
0.0
146
0.0
 13
0.0
 23
0.0
 33
0.0
 16
1.0
 26
0.0
 36
0.0
 17
0.0
 27
1.0
 37
0.0
 76
     0
330
23
  0
LAYOUT
  5
22
102
{ACAD_XDICTIONARY
360
3F0
102
}
102
{ACAD_REACTORS
330
1A
102
}
330
1A
100
AcDbPlotSettings
  1

  2
PLOTER 500
  4

  6

 40
0.0
 41
0.0
 42
0.0
 43
0.0
 44
0.0
 45
0.0
 46
0.0
 47
0.0
 48
0.0
 49
0.0
140
0.0
141
0.0
142
1.0
143
1.0
 70
  1712
 72
     0
 73
     0
 74
     0
  7
monochrome.ctb
 75
     0
147
1.0
148
0.0
149
0.0
100
AcDbLayout
  1
Model
 70
     1
 71
     0
 10
0.0
 20
0.0
 11
12.0
 21
9.0
 12
0.0
 22
0.0
 32
0.0
 14
0.0
 24
0.0
 34
0.0
 15
0.0
 25
0.0
 35
0.0
146
0.0
 13
0.0
 23
0.0
 33
0.0
 16
1.0
 26
0.0
 36
0.0
 17
0.0
 27
1.0
 37
0.0
 76
     0
330
1F
  0
MLINESTYLE
  5
18
102
{ACAD_REACTORS
330
17
102
}
330
17
100
AcDbMlineStyle
  2
STANDARD
 70
     0
  3

 62
   256
 51
90.0
 52
90.0
 71
     2
 49
0.5
 62
   256
  6
BYLAYER
 49
-0.5
 62
   256
  6
BYLAYER
  0
ACDBPLACEHOLDER
  5
F
102
{ACAD_REACTORS
330
E
102
}
330
E
  0
TABLESTYLE
  5
3CA
102
{ACAD_REACTORS
330
3C9
102
}
330
3C9
100
AcDbTableStyle
  3
Standard
 70
     0
 71
     0
 40
1.5
 41
1.5
280
     0
281
     0
  7
Standard
140
4.5
170
     2
 62
     0
 63
     7
283
     0
274
    -2
284
     1
 64
     0
275
    -2
285
     1
 65
     0
276
    -2
286
     1
 66
     0
277
    -2
287
     1
 67
     0
278
    -2
288
     1
 68
     0
279
    -2
289
     1
 69
     0
  7
Standard
140
6.0
170
     5
 62
     0
 63
     7
283
     0
274
    -2
284
     1
 64
     0
275
    -2
285
     1
 65
     0
276
    -2
286
     1
 66
     0
277
    -2
287
     1
 67
     0
278
    -2
288
     1
 68
     0
279
    -2
289
     1
 69
     0
  7
Standard
140
4.5
170
     5
 62
     0
 63
     7
283
     0
274
    -2
284
     1
 64
     0
275
    -2
285
     1
 65
     0
276
    -2
286
     1
 66
     0
277
    -2
287
     1
 67
     0
278
    -2
288
     1
 68
     0
279
    -2
289
     1
 69
     0
  0
DICTIONARYVAR
  5
3CD
102
{ACAD_REACTORS
330
3BD
102
}
330
3BD
100
DictionaryVariables
280
     0
  1
STANDARD
  0
DICTIONARYVAR
  5
3BF
102
{ACAD_REACTORS
330
3BD
102
}
330
3BD
100
DictionaryVariables
280
     0
  1
2
  0
DICTIONARYVAR
  5
3BE
102
{ACAD_REACTORS
330
3BD
102
}
330
3BD
100
DictionaryVariables
280
     0
  1
1
  0
DICTIONARYVAR
  5
3CE
102
{ACAD_REACTORS
330
3BD
102
}
330
3BD
100
DictionaryVariables
280
     0
  1

  0
XRECORD
  5
3BB
102
{ACAD_REACTORS
330
3B9
102
}
330
3B9
100
AcDbXrecord
280
     1
  0
DICTIONARY
  5
3EE
330
1E
100
AcDbDictionary
280
     1
281
     1
  3
ACAD_XREC_ROUNDTRIP
360
3EF
  0
DICTIONARY
  5
3F2
330
26
100
AcDbDictionary
280
     1
281
     1
  3
ACAD_XREC_ROUNDTRIP
360
3F3
  0
DICTIONARY
  5
3F0
330
22
100
AcDbDictionary
280
     1
281
     1
  3
ACAD_XREC_ROUNDTRIP
360
3F1
  0
XRECORD
  5
3EF
102
{ACAD_REACTORS
330
3EE
102
}
330
3EE
100
AcDbXrecord
280
     1
102
SHADEPLOT
 70
     0
102
SHADEPLOTRESLEVEL
 70
     2
102
SHADEPLOTCUSTOMDPI
 70
   300
  0
XRECORD
  5
3F3
102
{ACAD_REACTORS
330
3F2
102
}
330
3F2
100
AcDbXrecord
280
     1
102
SHADEPLOT
 70
     0
102
SHADEPLOTRESLEVEL
 70
     2
102
SHADEPLOTCUSTOMDPI
 70
   300
  0
XRECORD
  5
3F1
102
{ACAD_REACTORS
330
3F0
102
}
330
3F0
100
AcDbXrecord
280
     1
102
SHADEPLOT
 70
     0
102
SHADEPLOTRESLEVEL
 70
     2
102
SHADEPLOTCUSTOMDPI
 70
   300
  0
ENDSEC
  0
EOF
